Mike Oldfield A dedicated tab site

Lake Constance tab

Song: Lake Constance
Album: The Millennium Bell
Author: Mike Oldfield


This tab is just my interpretation of the song, and probably it does
not show the real author's work.  If you find any mistake contact me,
please.


Moisés Ferrer Serra
oldfield@byaku.net


Tab notation:
s	slide
>/<	slide up/down (indeterminated number of frets)
h	hammer on

More information about the notation at www.oldfield.byaku.net





     (2:32)

E|-------------5-7-9<-------------------7-7-----------------------5-7-9s12-12---|
B|---5-------5--------5---------------5-----10-10s5-5-----------5---------------|
G|---------6--------------4-6-7-----6-------------------4-----6-----------------|
D|-------7--------------7---------7-------------------7-----7-------------------|
A|-----7--------------7---------7-------------------------7---------------------|
E|------------------------------------------------------------------------------|

E|------9-10-12-10-9s5-5-9-7---|
B|---12------------------------|
G|-----------------------------|
D|-----------------------------|
A|-----------------------------|
E|-----------------------------|




     (2:53)

E|-------------5-7-9<----------------7-7-----------------------5-7-9s12-12---|
B|---5-------5--------5------------5-----10-10s5-5-----------5---------------|
G|---------6--------------4-6----6-------------------4-----6-----------------|
D|-------7--------------7-------7------------------7-----7-------------------|
A|-----7----------------------7------------------------7---------------------|
E|---------------------------------------------------------------------------|

E|------9-10-12-10-9s5-5-7s9-7---|
B|---12--------------------------|
G|-------------------------------|
D|-------------------------------|
A|-------------------------------|
E|-------------------------------|




     (3:23)

E|---------------------------------0---|
B|---------4-6-5-------4-6-------0-----|
G|---4-5-7------4-5-7----------1-------|
D|---------------------------2---------|
A|-------------------------2-----------|
E|-------------------------------------|




     (4:07)

E|-----------5-7s9-9-----------------7-7-----------------5h7-7-9-10-12-10-9s5---|
B|---------5---------------5-------5-----10-10s5-------5------------------------|
G|-------6---------------6-------6-------------------6--------------------------|
D|-----7---------------7-------7-------------------7----------------------------|
A|---7---------------7-------7-------------------7------------------------------|
E|------------------------------------------------------------------------------|

E|---5-9-7---|
B|-----------|
G|-----------|
D|-----------|
A|-----------|
E|-----------|




     (4:28)

E|---7-9-10-10-9-9s7-7---------------9----------10-8-8-7-7------|
B|---------------------10-------5-12---------10------------10---|
G|----------------------------6-----------10--------------------|
D|--------------------------7----------12-----------------------|
A|------------------------7-------------------------------------|
E|--------------------------------------------------------------|




     (5:00)

E|---------5-7-----------5---|
B|---5-6-8-------------5-----|
G|-------------------6-------|
D|-----------------7---------|
A|---------------7-----------|
E|-------------5-------------|



Contact

If you have any suggestion, request or anythin else, feel free to contact me anytime on surffer3d@hotmail.com.


NOTE! This site uses cookies and similar technologies.

This site uses cookies and similar technologies. If you not change browser settings, you agree to it. Learn more

I understand