Mike Oldfield A dedicated tab site

Waldberg (The Peak) tab

Song: Waldberg (The Peak).
Album: The Complete.
Author: Mike Oldfield.


This tab is just my interpretation of the song, and probably it does
not show the real author's work.  If you find any mistake contact me,
please.


Moisés Ferrer Serra
oldfield@byaku.net


Tab notation:
s	slide
>/<	slide up/down (undeterminated number of frets)
h	hammer on
p	pull off
b	bend
r	release bend

More information about the notation at www.oldfield.byaku.net





  Repetitive pattern (Electric Guitar 1)

E|---------------12----------------13----------------13------|
B|------------------13----------------15----------------15---|
G|---12-12-12-12-------14-14-14-14-------12-12-12-12---------|
D|-----------------------------------------------------------|
A|-----------------------------------------------------------|
E|-----------------------------------------------------------|

E|---------------12------|
B|------------------13---|
G|---12-12-12-12---------|
D|-----------------------|
A|-----------------------|
E|-----------------------|




START HERE

  (0:33) [[Play E.Guitar 1 pattern twice]]



  (0:58) [[Electric Guitar 2 starts]]

E|---15-15-15-15-13-12-------------------------12-13----15---|
B|---------------------15-13-13-15-15-15----15-------15------|
G|---------------------------------------12------------------|
D|-----------------------------------------------------------|
A|-----------------------------------------------------------|
E|-----------------------------------------------------------|

E|---12-13-15-15-15h20p15-13-12-------------------12-13------|
B|------------------------------15-13-13-15----15------------|
G|------------------------------------------12---------------|
D|-----------------------------------------------------------|
A|-----------------------------------------------------------|
E|-----------------------------------------------------------|

E|------15-15-12-13-15-12-13-15h20-17-15-13-12----12-13-----|
B|---15---------------------------------- ------15----------|
G|----------------------------------------------------------|
D|----------------------------------------------------------|
A|----------------------------------------------------------|
E|----------------------------------------------------------|

E|---15s3-15-12-13-15-12-13-15h20p17-15-13-12---------------|
B|--------------------------------------------15-15h17p15---|
G|----------------------------------------------------------|
D|----------------------------------------------------------|
A|----------------------------------------------------------|
E|----------------------------------------------------------|

E|--------|
B|--------|
G|---17---|
D|--------|
A|--------|
E|--------|



  (1:24) [[E.Guitar 1 pattern twice]]



  (1:48) [[Guitar 2]]

E|---3s15-15-15-15-13-12----------------------12-13----15-12---|
B|-----------------------15-13-13-15-15----15-------15---------|
G|--------------------------------------12---------------------|
D|-------------------------------------------------------------|
A|-------------------------------------------------------------|
E|-------------------------------------------------------------|

E|---13-15-15h20p15-13-12-------------------------12-13--------|
B|------------------------15-13-13-15-15-15----15-------15-----|
G|------------------------------------------12-----------------|
D|-------------------------------------------------------------|
A|-------------------------------------------------------------|
E|-------------------------------------------------------------|

E|---15----15-12-13-15-12-13-15h20-17-15-13-12----12-13-15<----|
B|---------------------------------------------15--------------|
G|------12-----------------------------------------------------|
D|-------------------------------------------------------------|
A|-------------------------------------------------------------|
E|-------------------------------------------------------------|

E|------15-12-13-15-12-13-15h20-17-15-13-12--------------------|
B|------------------------------------------15-15h17p15--------|
G|---12-------------------------------------------------17<----|
D|-------------------------------------------------------------|
E|-------------------------------------------------------------|



  (2:15) [[Play E.Guitar 1 pattern 3 times]]



  (2:38) [[Distorted Guitar]]

E|-------|
B|---1---|
G|---0---|
D|---2---|
A|---3---|
E|---3---|



  (2:50) [[Guitar 1 pattern with Guitar 2 (see next) and fade off]]

  [[Guitar 2]]

E|---12s15-20----20----17-17h18p17-15p17-19h20p19p17h19---------|
B|------------20----20----------------------------------20------|
G|--------------------------------------------------------------|
D|--------------------------------------------------------------|
A|--------------------------------------------------------------|
E|--------------------------------------------------------------|

E|---22b24-22b24-24r22p20-22p20-22b24-22b24r22p20-24r22p20------|
B|--------------------------------------------------------------|
G|--------------------------------------------------------------|
D|--------------------------------------------------------------|
A|--------------------------------------------------------------|
E|--------------------------------------------------------------|

E|---22b24-24r22p20-------------20-20-22-20h22-22----22-22h24---|
B|------------------22-22----22-------------------20------------|
G|------------------------24------------------------------------|
D|--------------------------------------------------------------|
A|--------------------------------------------------------------|
E|--------------------------------------------------------------|



  (3:15) [[Distorted Guitar]]

E|-------|
B|---1---|
G|---0---|
D|---2---|
A|---3---|
E|---3---|




 Acoustic Guitar Intro

E|---0h1p0-------------------------------------------|
B|---------3-1---1h3p1---------3-5---5s6-5---1-------|
G|-----------0---0-----2p0---5-----5-----------2-0---|
D|-----------2---------------------------------------|
A|-----------3---------------------------------------|
E|---------------------------------------------------|


The acoustic guitar continues in all the song, but I'll tab
it other day. Now it's a bit difficult to me.



Contact

If you have any suggestion, request or anythin else, feel free to contact me anytime on surffer3d@hotmail.com.


NOTE! This site uses cookies and similar technologies.

This site uses cookies and similar technologies. If you not change browser settings, you agree to it. Learn more

I understand