Mike Oldfield A dedicated tab site

Man In The Rain tab

Song: Man In The Rain.
Album: Tubular Bells III.
Author: Mike Oldfield.


This tab is just my interpretation of the song, and probably it does
not show the real author's work.  If you find any mistake contact me,
please.


Moisés Ferrer Serra
oldfield@byaku.net


Tab notation:
s	slide
h	hammer on
p	pull off
b	bend
r	release bend
~	vibrato

More information about the notation at www.oldfield.byaku.net




Chords

    C#m                B                G#m
E|---4---|        E|---2---|        E|---4---|
B|---5---|        B|---4---|        B|---4---|
G|---6---|        G|---4---|        G|---4---|
D|---6---|        D|---4---|        D|---6---|
A|---4---|        A|---2---|        A|---6---|
E|---4---|        E|---2---|        E|---4---|

     E                 A
E|---0---|        E|---0---|
B|---0---|        B|---2---|
G|---1---|        G|---2---|
D|---2---|        D|---2---|
A|---2---|        A|---0---|
E|---0---|        E|---0---|





Intro

E|-------2-0-------0-2-4-2-0---------2-0-------0-2-4-2-0-------|
B|-----4-----4-2-0-----------4-2---4-----4-2-0-----------4-2---|
G|---4---------------------------4-----------------------------|
D|-------------------------------------------------------------|
A|-------------------------------------------------------------|
E|-------------------------------------------------------------|



 C#m                         B                G#m
You're the one who's nearly breaking my heart,

                           C#m          B
Had your chance, you just threw it all away.

 C#m                              B                 G#m
Living in a world that you could never be a part of,

                     G#m       E
And now's a time to walk away.


                         B
[You can't stay, no you can't stay.]

            C#m            A             B                        E
[You're no loser, there's still time to ride that train, and you]

                      B        
[must be on your way tonight.]

           C#m       A                B
[Thinking you right through you're a Man In The Rain.]


 C#m                       B                G#m 
What's the use in hanging round these walls,

                       C#m         B
Lamps are burning but nobody's at home.

           C#m                  B               G#m
There's a new day dawning as a cold rain falls,

                       C#m
And now's the time to walk alone.



[Chorus]


E|------------|
B|------------|
G|-----9h11---|
D|---9--------|
A|------------|
E|------------|

                          E
How's it feel when there's

E|------------|
B|--------9---|
G|-----11-----|
D|---9--------|
A|------------|
E|------------|


         B
time to remember,


E|------------|
B|------------|
G|-----9h11---|
D|---9--------|
A|------------|
E|------------|

                       E
branches bare like the


E|------------|
B|--------9---|
G|-----11-----|
D|---9--------|
A|------------|
E|------------|


          B
trees in November.


(Vocal ad. lib.)


      C#m                      B           G#m
E|---------------------------------------------|
B|---------------17-21-19p17h19-19----16-------|
G|---16s18-18-18-------------------18----16~---|
D|---------------------------------------------|
A|---------------------------------------------|
E|---------------------------------------------|



             C#m          B
Had it all, threw it all away.



              C#m                    B           G#m
E|---------------------------------------------------|
B|---------------------17-21-19p17h19-19----16-------|
G|---------16-18-18-18-------------------18----16~---|
D|---16-18-------------------------------------------|
A|---------------------------------------------------|
E|---------------------------------------------------|



                 C#m  B   E
Now's a time to walk away.



[Chorus]



E|------------|
B|------------|
G|-----9h11---|
D|---9--------|
A|------------|
E|------------|

                          E
How's it feel when there's


E|------------|
B|--------9---|
G|-----11-----|
D|---9--------|
A|------------|
E|------------|

         B
time to remember,



E|------------|
B|------------|
G|-----9h11---|
D|---9--------|
A|------------|
E|------------|

                       E
branches bare, like the



E|------------|
B|--------9---|
G|-----11-----|
D|---9--------|
A|------------|
E|------------|


          B
trees in November.


                          E
How's it feel when there's



E|------------|
B|--------9---|
G|-----11-----|
D|---9--------|
A|------------|
E|------------|


         B
time to remember,



E|------------|
B|------------|
G|-----9h11---|
D|---9--------|
A|------------|
E|------------|

                       E
branches bare, like the



E|------------|
B|--------9---|
G|-----11-----|
D|---9--------|
A|------------|
E|------------|


          B
trees in November.



  Very cool solo guitar!!!

  Guitar 1 (clean guitar)

E|------------------------------------------------------------|
B|------------------------------------------------------------|
G|------9-11b13-13r11p9----9----9-11-11h13p11p9h11~-9h11s13---|
D|---11-----------------11---11-------------------------------|
A|------------------------------------------------------------|
E|------------------------------------------------------------|

E|------------------------------------------------------------|
B|---12h14b16----------14h16b17r16-14h16-14----14h16----------|
G|------------16p13h16----------------------16-------13-------|
D|------------------------------------------------------------|
A|------------------------------------------------------------|
E|------------------------------------------------------------|

E|---------------16-------------------------------------------|
B|---16b17r16-14----14-14h16h17-17b19r17-16-14-16-14----------|
G|----------------------------------------------------16------|
D|------------------------------------------------------------|
A|------------------------------------------------------------|
E|------------------------------------------------------------|

E|------------------------------------------------------------|
B|---14-------------------------14h16b17r16-14----------------|
G|------16p13-13h16p13----13h16----------------16-11h13-11----|
D|---------------------16-------------------------------------|
A|------------------------------------------------------------|
E|------------------------------------------------------------|

E|------------------------------16h19-------19----------------|
B|---------------------------17-------17b19----19r17-16-------|
G|------------------------16----------------------------16----|
D|---14-16-14-14-14s16h18-------------------------------------|
A|---------14-------------------------------------------------|
E|------------------------------------------------------------|

E|------------------------------------------------------------|
B|---17h19-19b21r19-17----------------------------------------|
G|---------------------18-------------------------------------|
D|------------------------16b18r16-------14h16-16-14h16-------|
A|---------------------------------19p16-14-------14----------|
E|------------------------------------------------------------|

E|---------------------16b17r16-------------19-----19---------|
B|------------------17----------17----17b19----19~----17b19---|
G|---------------16----------------16-------------------------|
D|---14h16-16s18----------------------------------------------|
A|---14-------------------------------------------------------|
E|------------------------------------------------------------|

E|-----------------------------|
B|---17----17b19-17----17b19---|
G|------18----------18---------|
D|-----------------------------|
A|-----------------------------|
E|-----------------------------|


  Guitar 2 (distorted guitar)

E|------------------------------------------------------------|
B|------17----17----17----------------------------------------|
G|---18----18----18-------------------------------------------|
D|---------------------16h18-16-16s18-16-14----14s16-16-16~---|
A|------------------------------------------16----------------|
E|------------------------------------------------------------|


  Guitar 1 (clean guitar)

E|--------------9-------9-11-11b12r11-9-------------|
B|--------12-12---12-10------------------12---------|
G|---9s11-----------------------------------11b13---|
D|--------------------------------------------------|
A|--------------------------------------------------|
E|--------------------------------------------------|



Threw it all away.



  Guitar 2 (distorted guitar)

E|------------------------------------------------------------|
B|------17----17----17----------------------------------------|
G|---18----18----18-------------------------------------------|
D|---------------------16h18-16-16s18-16-14----14s16-16-16~---|
A|------------------------------------------16----------------|
E|------------------------------------------------------------|


  Guitar 1 (clean guitar)

E|--------------9-------9-11-11b12r11-9--------------------|
B|--------12-12---12-10------------------12-9--------------|
G|---9s11-------------------------------------11-9h11-13---|
D|---------------------------------------------------------|
A|---------------------------------------------------------|
E|---------------------------------------------------------|



[Chorus]


C#m B G#m


 C#m          B     C#m          B
Threw it all away, threw it all away.


C#m B G#m


                 C#m      B   E
And now's a time to walk away.

[Chorus]



Contact

If you have any suggestion, request or anythin else, feel free to contact me anytime on surffer3d@hotmail.com.


NOTE! This site uses cookies and similar technologies.

This site uses cookies and similar technologies. If you not change browser settings, you agree to it. Learn more

I understand