Mike Oldfield A dedicated tab site

Let There Be Light tab

Song: Let There Be Light
Album: The Songs Of Distant Earth
Author: Mike Oldfield


This tab is just my interpretation of the song, and probably it does
not show the real author's work.  If you find any mistake contact me,
please.


Moisés Ferrer Serra
oldfield@byaku.net


Tab notation:
s	slide
h	hammer on
b	bend
b^	bend 1/2 note
r	release bend
u	unpitched mute
~	vibrato

More information about the notation at www.oldfield.byaku.net





Chords

     B                 C#               Fa#
E|---2---|        E|---4---|        E|---6---|
B|---4---|        B|---6---|        B|---7---|
G|---4---|        G|---6---|        G|---6---|
D|---4---|        D|---6---|        D|---8---|
A|---2---|        A|---4---|        A|---9---|
E|-------|        E|-------|        E|-------|

     B                Ebm                E 
E|---7---|        E|---6---|        E|---4---|
B|---7---|        B|---7---|        B|---5---|
G|---8---|        G|---8---|        G|---4---|
D|---9---|        D|---8---|        D|---6---|
A|---9---|        A|---6---|        A|---7---|
E|---7---|        E|-------|        E|-------|


     A
E|---5---|
B|---5---|
G|---6---|
D|---7---|
A|---7---|
E|---5---|





    (0:10)                (0:26)              (0:32)
E|----------7-------------------------------------------7---------------|
B|-----7-10---10-7-------------------10----------5s7-10---10-7-----7~---|
G|---9-------------9-7-------7h9-7-9----9b11---9-------------7-9-7------|
D|---------------------9---9---------------------------------9-----9~---|
A|----------------------------------------------------------------------|
E|----------------------------------------------------------------------|

    (0:44)                  (0:55)                 (1:06)
E|---------------------------19---------------------------------------------------|
B|-------------------7----------22---------------------19-------------22----------|
G|-----------7h9-7-9---------------21b23r21-19------------19b21-19h21----21b23~---|
D|-------7-9-----------7h9---------------------21---21----------------------------|
A|---7s9--------------------------------------------------------------------------|
E|--------------------------------------------------------------------------------|

    (1:16)                           (1:30)
E|---------------------------------------------------------|
B|-------------10-10b12r10-7-----7~------------------------|
G|---9b11r9b11-------------7-9-7------7s9---9-7-9h11-------|
D|-------------------------------9~---9s11-11--------7s9---|
A|---------------------------------------------------------|
E|---------------------------------------------------------|




And God said "Let's there be light"




    (3:06)                         (3:19)
E|-----------9b^-11-9------------------------------------------|
B|---9b^-11-----------11-9--11----------------------14---------|
G|--------------------------11----------11h13-11h13----13b15---|
D|-----------------------------13---11u------------------------|
A|-------------------------------------------------------------|
E|-------------------------------------------------------------|

    (3:29)                                (3:44)
E|-----------------------------------------------------------|
B|---------------14-14b16r14-11----11------9b11r9~-7-7-------|
G|---13b15r13b15----------------13-11--------------8-8-8-8---|
D|---------------------------------13-13---------------------|
A|-----------------------------------------------------------|
E|-----------------------------------------------------------|

    (3:51)                                         (4:02)
E|-------------------------------------------------------------------|
B|---------11b^-14-14b16r14-11-14-14s16-16b19r16----16s19-19-19b21---|
G|----13b^-----------------------------------------------------------|
D|-------------------------------------------------------------------|
A|-------------------------------------------------------------------|
E|-------------------------------------------------------------------|

    (4:07)                (4:13)                          B   C#
E|--------------21----------------9-11-9------------------2---4---|
B|---19b^r19b21----21b23---9b^-11--------11-9h11p9--------4---6---|
G|-------------------------------------------------11-8---4---6---|
D|--------------------------------------------------------4---6---|
A|--------------------------------------------------------2---4---|
E|----------------------------------------------------------------|

    (4:30)            Fa#  B  Ebm  C#  E   A
E|---------------------6---7---6---4---4---5----------|
B|---------11----------7---7---7---6---5---5----7-9---|
G|---11h13-------------6---8---8---6---4---6---6------|
D|------------11h13~---8---9---8---6---6---7----------|
A|---------------------9---9---6---4---7---7----------|
E|----------------------------------------------------|



Contact

If you have any suggestion, request or anythin else, feel free to contact me anytime on surffer3d@hotmail.com.


NOTE! This site uses cookies and similar technologies.

This site uses cookies and similar technologies. If you not change browser settings, you agree to it. Learn more

I understand