Mike Oldfield A dedicated tab site

Holy tab

Song: Holy.
Album: Earth Moving.
Author: Mike Oldfield


This tab is just my interpretation of the song, and probably it does
not show the real author's work.  If you find any mistake contact me,
please.


Moisés Ferrer Serra
oldfield@byaku.net


Tab notation:
s	slide
>/<	slide up/down (indeterminated number of frets)
h	hammer on
p	pull off
b	bend
r	release bend
x	palm mute
u	unpitched mute

More information about the notation at www.oldfield.byaku.net





Chords

     D                C                E
E|---2---|       E|---0---|       E|---7---|
B|---3---|       B|---1---|       B|---9---|
G|---2---|       G|---0---|       G|---9---|
D|---0---|       D|---2---|       D|---9---|
A|-------|       A|---3---|       A|---7---|
E|-------|       E|---0---|       E|---7---|

     Em              F#m               G
E|---0---|       E|---9----|      E|---3---|
B|---0---|       B|---10---|      B|---3---|
G|---0---|       G|---11---|      G|---4---|
D|---2---|       D|---11---|      D|---5---|
A|---2---|       A|---9----|      A|---5---|
E|---0---|       E|---9----|      E|---3---|

     A              Bbsus2            Em.
E|---0---|       E|---1---|       E|---7---|
B|---2---|       B|---1---|       B|---8---|
G|---2---|       G|---3---|       G|---9---|
D|---2---|       D|---3---|       D|---9---|
A|---0---|       A|---1---|       A|---7---|
E|-------|       E|---1---|       E|-------|

     D.               C.               Am
E|---5---|       E|---3---|       E|---0---|
B|---7---|       B|---5---|       B|---1---|
G|---7---|       G|---5---|       G|---2---|
D|---7---|       D|---5---|       D|---2---|
A|---5---|       A|---3---|       A|---0---|
E|-------|       E|-------|       E|-------|





D              A              Em
Harmony Always, When I Look Around Me

     A
And Your Smile I See

      D                   A
I Can Feel It Surround Me

          Em         A           C
A Miracle I Find In Your Company


     G        C           G
One Glance Is All That I Need

            c                   D
What I Was Searching For I’ve Found It


D                  A               Em
Can You Believe It, I’m Walking On Water

         A
And I’m High Off The Ground

             D                       A
Must Be Some Mystique That Weaves It

               Em              A                C
I’d Never Have Thought Of This Power I’ve Found


     G        C           G
One Glance Is All That I Need

            c                   D      C
What I Was Searching For I’ve Found It

     G        C       G
One Look And Now I Believe

              Am                 D
I Could Just Wrap My Wholeself Around It



G D                              Em G D. Em.
Holy, To Me Just One Glance Is Holy

      D            C     Em   C      Em. D.
One Touch Of Your Heart To Me That’s Holy

G D                              Em G D. Em.
Holy, To Me Just One Glance Is Holy

      D            C     Em   C      Em. D.
One Touch Of Your Heart To Me That’s Holy


Bbsus2                     C.
You’ve Seen It Walking On Water

A                       C.      F#m E
Miracles Like You’ve Never Seen Before

Bbsus2                     C.
You’ve Seen It Walking On Water

A                       C.      F#m E
Miracles Like You’ve Never Seen Before


G D                              Em G D. Em.
Holy, To Me Just One Glance Is Holy

      D            C     Em   C      Em. D.
One Touch Of Your Heart To Me That’s Holy

G D                              Em G D. Em.
Holy, To Me Just One Glance Is Holy

      D            C     Em   C      Em. D.
One Touch Of Your Heart To Me That’s Hol

(Repite the last paragraph in some different forms)




  (0:43)

E|--------------------------------------------------------------|
B|--------------------------------------------------------------|
G|-------7-7x-7x-7x-7x-----9b11-9-7-----7-7-7x-7x-7x-7x---------|
D|---7h9---------------9p7----------7s9-----------------9p7-----|
A|--------------------------------------------------------------|
E|--------------------------------------------------------------|

E|--------------------|
B|--------------------|
G|---9b11-9-7-----7---|
D|------------7h9-----|
A|--------------------|
E|--------------------|



  Repeat this on (1:29)/(1:48)/(2:46)/(3:05)/(3:24)/(3:43)/(4:02)/(4:21)

E|--------------------------------------------|
B|--------------------------------------------|
G|-------7-7x-7x-7x-7x-----9b11-9-7-----7-----|
D|---7h9---------------9p7----------7s9-------|
A|--------------------------------------------|
E|--------------------------------------------|



  Repeat this on (1:35)/(1:54)/(2:52)/(3:11)/(3:30)/(3:49)/(4:09)/(4:28)

E|------------------------------|
B|------------------------------|
G|-------------4--------4-------|
D|-------5---5----7-5-7---5-----|
A|---5-7---7----------------7---|
E|------------------------------|

     (1:40)/(1:59)/(2:57)/(3:16)/(3:35)/(3:54)/(4:13)/(4:32)

E|--------------------------------------------------------|
B|--------------------------------------------------------|
G|--------------------------------------------------------|
D|-------5-5x-5-5x-5-5x-----5-5x-5-5x-----7b9r7-5-----5---|
A|---7s5----------------7p5-----------7s5---------5h7-----|
E|--------------------------------------------------------|

     (1:44)/(2:04)/(3:01)/(3:20)/(3:40)/(3:59)/(4:17)

E|---------------------------------|
B|---------------------------------|
G|-----------------------4---------|
D|---------------5---5h7---5-------|
A|-------5-5-5s7---7---------7-----|
E|---5h7---------------------------|



  Solo guitar (2:14)

E|--------------------------------------------------------12-----|
B|---------------------------------------------------------------|
G|---4s6-6h7p6---------------------------------------------------|
D|-------------9-6-------------------------10b11----12s14--------|
A|-----------------7h9p7-------------10s12-------14--------------|
E|-----------------------7h9p7s12-12-----------------------------|

E|-----------------------------------------------------------------|
B|------14b15-14b15r14----------14-12----12b14-12----12----12b14---|
G|---14-------------------------------14----------14----14---------|
D|---------------------14-14-14------------------------------------|
A|-----------------------------------------------------------------|
E|-----------------------------------------------------------------|

E|---------------------------------------------17-19-21-19r17----|
B|---------------15----14----------------------------------------|
G|---13h14----------------14-16----------------------------------|
D|---------16-16----16----------14b16-14-12p9>-------------------|
A|---------------------------------------------------------------|
E|---------------------------------------------------------------|



     (3:59)

E|---------------19-20-20b22--15b17------------------------------|
B|---17b19r17p15--------------------17b18-17b19r17s15------------|
G|---------------------------------------------------------------|
D|----------------------------------------------------------12---|
A|----------------------------------------------------12h14------|
E|---------------------------------------------------------------|

E|-------------------19p20h19----17h19p17----17b19-17b19---------|
B|---------------------------------------------------------------|
G|----------------------------19----------19---------------------|
D|---14b16r14-12-------------------------------------------------|
A|---------------------------------------------------------------|
E|---------------------------------------------------------------|

E|---19b20r17-17-15-17-15-17b20-----|
B|----------------------------------|
G|----------------------------------|
D|----------------------------------|
A|----------------------------------|
E|----------------------------------|



     (4:21)

E|---9b11-11x-11x-11x-11x-11x-11x-11x-11x-11r9-7---------|
B|-----------------------------------------------9-7-----|
G|-------------------------------------------------------|
D|-------------------------------------------------------|
A|-------------------------------------------------------|
E|-------------------------------------------------------|



     (4:24)

E|-----------------------------------------------------------|
B|---13b15r13b15r13----12b13r12b13r12----------12-------15---|
G|------------------12-------------------12h14----12h14------|
D|------------------------------------12---------------------|
A|-----------------------------------------------------------|
E|-----------------------------------------------------------|

E|---------------------------------------14s15-12-14s15-12---|
B|-----------------------------------------------------------|
G|---14b16-14b16r14-14p12h14-14p12h14b16---------------------|
D|-----------------------------------------------------------|
A|-----------------------------------------------------------|
E|-----------------------------------------------------------|

E|---14s15-12-14s15-12---|
B|-----------------------|
G|-----------------------|
D|-----------------------|
A|-----------------------|
E|-----------------------|



Contact

If you have any suggestion, request or anythin else, feel free to contact me anytime on surffer3d@hotmail.com.


NOTE! This site uses cookies and similar technologies.

This site uses cookies and similar technologies. If you not change browser settings, you agree to it. Learn more

I understand