Mike Oldfield A dedicated tab site

First Landing tab

Song: First Landing
Album: The Songs Of Distant Earth
Author: Mike Oldfield


This tab is just my interpretation of the song, and probably it does
not show the real author's work.  If you find any mistake contact me,
please.


Moisés Ferrer Serra
oldfield@byaku.net


Tab notation:
There is not special notation for this song

More information about the notation at www.oldfield.byaku.net





    Background guitar

    (0:00)
E|--------------------|
B|--------------------|
G|--------------------|
D|--------------------|
A|------16----16h18---|
E|---16----16---------|



    Lead guitar

    (0:00)
E|-----9-13-11-10-9-10---|
B|---9-------------------|
G|-----------------------|
D|-----------------------|
A|-----------------------|
E|-----------------------|



Contact

If you have any suggestion, request or anythin else, feel free to contact me anytime on surffer3d@hotmail.com.


NOTE! This site uses cookies and similar technologies.

This site uses cookies and similar technologies. If you not change browser settings, you agree to it. Learn more

I understand