Mike Oldfield A dedicated tab site

Wild Goose Flaps Its Wings tab

Song: Wild Goose Flaps Its Wings.
Album: Voyager.
Author: Mike Oldfield.


This tab is just my interpretation of the song, and probably it does
not show the real author's work.  If you find any mistake contact me,
please.


Moisés Ferrer Serra
oldfield@byaku.net


Tab notation:
s	slide
h	hammer on
p	pull off
b	bend
r	release bend
()	pre-bend


More information about the notation at www.oldfield.byaku.net





     (0:05)
E|---------------------------------------------------------------------|
B|------------------------8h10-----8-----------------------------------|
G|------------7-9p7p5h7-9------9-7---7s9-------------------------------|
D|-----7-9-10----------------------------7-9--------------10p9p7-7-7---|
A|---7---------------------------------------10-7s5-5h7----------------|
E|------------------------------------------------------0--------------|

E|--------------7h8p7------------------15-17-17------------------|
B|-------8-8b10-------10---15-17----------------17-18h17h15------|
G|---7s9-----------------9-------17-14----------------------17---|
D|---------------------------------------------------------------|
A|---------------------------------------------------------------|
E|---------------------------------------------------------------|

E|------15------------------------------------------------|
B|---15---------------------------------------------------|
G|---------14s16-14p12-------12-12-12-12h14---------------|
D|---------------------14p12----------------12h14p12s10---|
A|--------------------------------------------------------|
E|--------------------------------------------------------|


     (1:14)
E|---------------------------|
B|---------------------------|
G|--------------9------------|
D|---10h12p10p9---9-10p9p7---|
A|---------------------------|
E|---------------------------|


     (1:38)
E|--------------------------------------------------------------------|
B|------------------------------------------------------13------------|
G|------------------------------------------------14h16----14---------|
D|---10-------14------------------------------------------------------|
A|------12s14----14-15p14p12-12h14p12p10------------------------------|
E|---------------------------------------12-10-12---------------------|

E|--------------------------------------------------------------------|
B|---13h15p13p12----12-------12h13-12-------13h15p13p12---------------|
G|---------------12----12-14----------14-14-------------12------------|
D|--------------------------------------------------------------------|
A|--------------------------------------------------------------------|
E|--------------------------------------------------------------------|

E|-----------------|
B|---12h13p12p10---|
G|-----------------|
D|-----------------|
A|-----------------|
E|-----------------|


     (2:36)
E|----------------------------------------17-19-20-22b24-(22)24r22-22---|
B|-------------------------------------17-------------------------------|
G|----------------------------------17----------------------------------|
D|---2-0h2-0-2-------------------19-------------------------------------|
A|-------------3-2-0-2---------0---------------------------------------|
E|---------------------3-0-0-3----------------------------------------|

E|---19-19h21p19-17-------15-------------------12-12b13r12------------|
B|------------------17p15----17-15-17p15p13----------------13---------|
G|------------------------------------------14----------------12------|
D|--------------------------------------------------------------------|
A|--------------------------------------------------------------------|
E|--------------------------------------------------------------------|

E|-----------------------------------|
B|---15b17-15-15p13-12h13p12p10-10---|
G|-----------------------------------|
D|-----------------------------------|
A|-----------------------------------|
E|-----------------------------------|


     (3:32)
E|--------------------------------------------------------------------|
B|------------------------------------------12-13p12------------------|
G|---------------------------------------14----------14---------------|
D|---10-------14-------------------12-14----------------14----12-14---|
A|------12s14----14s12-12-14h15-15-------------------------15---------|
E|--------------------------------------------------------------------|

E|--------------------------------------------------------------------|
B|------------------------------------------12-13-12------------------|
G|---14----------------14s16-12----------14----------14--0h14-14------|
D|------------------------------14-12-14----------------14------------|
A|------14h15p14p12-12------------------------------------------------|
E|--------------------------------------------------------------------|

E|--------------------------------------------------------------------|
B|---12h13----13h15p13p12-12----12-------12----------------12-13------|
G|---------14----------------12----12-14----14----------14------------|
D|---------------------------------------------14-12-14---------------|
A|--------------------------------------------------------------------|
E|--------------------------------------------------------------------|

E|--------------------------------------------------------|
B|---12s10-10-10----12-13----13-15p13p12-12----12---------|
G|---------------14-------14----------------12----12h14---|
D|--------------------------------------------------------|
A|--------------------------------------------------------|
E|--------------------------------------------------------|



Also interesting...

Contact

If you have any suggestion, request or anythin else, feel free to contact me anytime on surffer3d@hotmail.com.


NOTE! This site uses cookies and similar technologies.

This site uses cookies and similar technologies. If you not change browser settings, you agree to it. Learn more

I understand