Mike Oldfield A dedicated tab site

Cuckoo Song tab

Song: Cuckoo Song
Album: The Complete
Author: Mike Oldfield


This tab is just my interpretation of the song, and probably it does
not show the real author's work.  If you find any mistake contact me,
please.


Moisés Ferrer Serra
oldfield@byaku.net


Tab notation:
s	slide
h	hammer on
p	pull off

More information about the notation at www.oldfield.byaku.net





Chords

     E                 D                 A
E|---7---|        E|---5---|        E|---5---|
B|---9---|        B|---7---|        B|---5---|
G|---9---|        G|---7---|        G|---6---|
D|---9---|        D|---7---|        D|---7---|
A|---7---|        A|---5---|        A|---7---|
E|---7---|        E|---5---|        E|---5---|

     E                 D                 A 
E|---0---|        E|---2---|        E|---0---|
B|---0---|        B|---3---|        B|---2---|
G|---1---|        G|---2---|        G|---2---|
D|---2---|        D|---0---|        D|---2---|
A|---2---|        A|-------|        A|---0---|
E|---0---|        E|-------|        E|-------|

     E                 C#               F#m
E|---4---|        E|---4---|        E|---2---|
B|---5---|        B|---6---|        B|---2---|
G|---4---|        G|---6---|        G|---2---|
D|---2---|        D|---6---|        D|---2---|
A|---0---|        A|---4---|        A|---4---|
E|---0---|        E|---4---|        E|---2---|





  First Guitar Solo (1:50)

E|------------------------------------------14----------14-16-17---|
B|---14-15-17----17-17-15-14----------15-17----17-15-17------------|
G|---------------------------16-14-14------------------------------|
D|------------14---------------------------------------------------|
A|-----------------------------------------------------------------|
E|-----------------------------------------------------------------|

E|---12h17-12------------------------------------------------------|
B|------------14-14-17----------------14----------------------14---|
G|---------------------16----16-14-16----14-14-13-14-16----16------|
D|------------------------14----------------------------14---------|
A|-----------------------------------------------------------------|
E|-----------------------------------------------------------------|

E|------------------------------------------------------------14---|
B|------------------------------------17-14h17p14-------15-17------|
G|---16-14-13-------16-13h16p13-------------------14---------------|
D|------------14----------------14---------------------------------|
A|---------------------------------------------------12------------|
E|---------------12----------------12------------------------------|

E|------------14-16-17-12h17-12---------------------------------------|
B|---17-15-17-------------------14-14-17----------------------14------|
G|---------------------------------------16----16-18p16p14h16----14---|
D|------------------------------------------14------------------------|
A|--------------------------------------------------------------------|
E|--------------------------------------------------------------------|

E|------------------------------------------------------------------|
B|---------------------14----------------17-14h17p14-------15-14----|
G|---14-13-14-16----16----16-14-13-------------------14-14----------|
D|---------------14----------------14-------------------------------|
A|------------------------------------------------------------------|
E|------------------------------------12----------------------------|

E|--------------------------------------------|
B|------14------------------------------------|
G|---16----16-14-13-14-16-13h14h16p14---------|
D|------------------------------------14------|
A|---------------------------------------12---|
E|--------------------------------------------|





  Second Guitar Solo (2:40)

E|-----------------------------14-12-14-12-12-12-17p14h17p14-------|
B|---5s10-9-10h12p10p9h10h12---------------------------------------|
G|---------------------------9-------------------------------------|
D|-----------------------------------------------------------------|
A|-----------------------------------------------------------------|
E|-----------------------------------------------------------------|

E|-----------------------------------------------------------------|
B|---15p14h15-17-14h17p14-15----14-------------------17------------|
G|---------------------------16----14-14p13h14s16-16----16----16---|
D|---------------------------------------------------------14------|	
A|-----------------------------------------------------------------|
E|-----------------------------------------------------------------|

E|---------------------17-16-17-19---------------------------------|
B|---17-14h17p14----15-------------17-15-15-17-14-14----17---------|
G|---------------14----------------------------------16----16------|
D|------------------------------------------------------------14---|
A|-----------------------------------------------------------------|

E|-------------|
B|------17-----|
G|---16--------|
D|-------------|
A|-------------|
E|-------------|





Rythm (Acoustic Guitar)


(0:00) --> Pattern One
(0:34) --> Pattern Two
(0:56) --> Pattern Three
(1:30) --> Pattern Two
(1:50) --> Pattern Three
(2:24) --> Pattern Two
(2:44) --> Pattern Three


[Pattern One]

     A               Asus4   A       E       A       E
E|-------------------------5-----------7---7-------------------|
B|-------------5---5---5---5---5-------9---9---5---5---9---9---|
G|-----6---6---6---6---7---7---6---6---9---9---6---6---9---9---|
D|-----7---7---7---7-9-7-----7-7-6-7-9-------7-7---7-9-9---9---|
A|-----7---7-7-----------7---------7-----7---------------7-----|
E|---5---5-------5-------------------------------5-------------|

                     A       D       A       E       A
E|-------------------------5---------------------------5---5---|
B|-----9---9---9---9---5---5---7---7---5---5---9---9---5---5---|
G|-----9---9---9---9---6---6---7---7-6-6---6---9---9---6---6---|
D|---9-9---9-9-9---9---7-7-----7---7---7-6-7-9-9---9-----7-----|
A|-------7-------7-----------9-------------------7-------------|
E|-------------------5-----------5-------------------5---------|

     E                       A       E       Asus4  A
E|-----7---7---7---7---7---7-------5-------7-5-5----5---|
B|-----9---9---9---9---9---9---5---5---9---9-5-5----5---|
G|-----9---9---9---9---9---9---6---6---9---9-6-7----6---|
D|---9-------9-------9---------7-7---9-9----------------|
A|-------7-------7-------7---------------7-----7--------|
E|---------------------------5---------------5------5---|



[Pattern Two]

     A                       E
E|-----------------------------5---5---5---5---5---5---5---5---|
B|-----2---2---2---2---2---2---4---4---4---4---4---4---4---4---|
G|-----2---2---2---2---2---2---5---5---5---5---5---5---5---5---|
D|-----2---2---2---2---2---2-2---2---2---2---2---2---2---2-----|
A|---0---0---0---0---0---0-------------------------------------|
E|-------------------------------------------------------------|

      F#m     D                       C#  D   E
E|------2---2---2---2---2---2---2---2-----------------|
B|------2---2---3---3---3---3---3---3---6---7-----9---|
G|------2---2---2---2---2---2---2---2---6---7---9-9---|
D|----4---4---0---0---0---0---0---0-----6---7---9-9---|
A|------------------------------------4---5---7-------|
E|----------------------------------------------------|


you can play it also like this

     A                       E
E|-------------------------------------------------------------|
B|-----------------------------9---9---9---9---9---9---9---9---|
G|-----6---6---6---6---6---6---9---9---9---9---9---9---9---9---|
D|-----7---7---7---7---7---7---9---9---9---9---9---9---9---9---|
A|-----7---7---7---7---7---7-7---7---7---7---7---7---7---7-----|
E|---5---5---5---5---5---5-------------------------------------|
      F#m     D                       C#  D   E
E|------2---2-----------------------------------------|
B|------2---2---7---7---7---7---7---7---6---7-----9---|
G|------2---2---7---7---7---7---7---7---6---7---9-9---|
D|----4---4-----7---7---7---7---7---7---6---7---9-9---|
A|------------5---5---5---5---5---5---4---5---7-------|
E|----------------------------------------------------|



[Pattern Three]

     A               D       A         E       A       E
E|-----5---5---5---5---5---5---5-----5-------------------5------5----0---0---|
B|-----5---5---5---5---7---7---5---5-----9-10---9-10---5------5------0---0---|
G|-----6---6---6---6---7---7---6---6-----9------9------6------6------1---1---|
D|---------------------------------------9------9------7------7--------------|
A|-------5---------------7-------------7------7--------------------7---7-----|
E|---5-------5---5---7-------5---4-------------------5------5----------------|

                     A       D       A       E       A
E|-----0---0---0---0-----------2---2---0-------0---0-----------|
B|-----0---0---0---0---2---2---3---3---2---9---0---0---2---2---|
G|-----1---1---1---1---2---2---2---2---2---9---1---1---2---2---|
D|---------------------2---2---------------9-----------2---2---|
A|---7---7---7---7-----------5---5---4---4---7---7-------------|
E|-------------------5---5---------------------------5---5-----|

     E                       A       E       A
E|-----0---0---0---0---0---0-----------0---0---0-----|
B|-----0---0---0---0---0---0---2---2---0---0---2-2---|
G|-----1---1---1---1---1---1---2---2---1---1---2-2---|
D|-----------------------------2---2-------------2---|
A|---7---7---7---7---7---7-----------7---7-----------|
E|---------------------------5---5-----------5-------|



Contact

If you have any suggestion, request or anythin else, feel free to contact me anytime on surffer3d@hotmail.com.


NOTE! This site uses cookies and similar technologies.

This site uses cookies and similar technologies. If you not change browser settings, you agree to it. Learn more

I understand