Mike Oldfield A dedicated tab site

Thou Art In Heaven

Song: Thou Art In Heaven
Album: Tr3s Lunas
Author: Mike Oldfield


This tab is just my interpretation of the song, and probably it does
not show the real author's work.  If you find any mistake contact me,
please.


Moises Ferrer Serra
oldfield@byaku.net


Tab notation:
s	slide
>/<	slide up/down (indeterminated number of frets)
h	hammer on
p	pull off
b	bend
r	release bend
~	vibrato


More information about the notation at www.oldfield.byaku.net




Distorted guitar. Repeat this pattern (Bm) 4 times.

    (2:56),(3:11),(3:26),(3:41)
E|---2-2-2---|
B|---3-3-3---|
G|---4-4-4---|
D|---4-4-4---|
A|---2-2-2---|
E|-----------|



Solo guitar

     (2:08)                  (2:14)
E|--------------------------------------------------------|
B|--------------------------------------------------------|
G|-------7-7----------------------------------------------|
D|---7h9-----9-9h11-----7-------7h9s11-11h12p11-9-11------|
A|------------------7h9-------9---------------------------|
E|--------------------------------------------------------|

               (2:23)
E|--------------------------------------------------------|
B|--------------------------------------------------------|
G|---7-9-9b11---------7-7~--------------------------------|
D|----------------7-9------9-9b11r9-----7-7---------------|
A|--------------9-------------------7s9-------------------|
E|--------------------------------------------------------|

    (2:31)
E|---------19-17------------------------------------------|
B|---17b19-------19-17----17-19-19b21r19b20r19------------|
G|---------------------19---------------------------------|
D|--------------------------------------------------------|
A|--------------------------------------------------------|
E|--------------------------------------------------------|



     (3:22)                  
E|--------------------------------------------------------|
B|--------------------------------------------------------|
G|--------------------------7-9-9b11----------------------|
D|-----7h9s11-11h12p11-9-11-------------------------------|
A|---9----------------------------------------------------|
E|--------------------------------------------------------|



    (3:38)
E|---------19-17------------------------------------------|
B|---17b19-------19-17----17-19-19b21r19b20r19------------|
G|---------------------19---------------------------------|
D|--------------------------------------------------------|
A|--------------------------------------------------------|
E|--------------------------------------------------------|


     (5:01)                  Fading in
E|--------------------------------------------------------|
B|--------------------------------------------------------|
G|-------7-7-----------------------------------7-9-9b11---|
D|---7h9-----9-9h11-----7-----11-11h12p11-9-11------------|
A|------------------7h9-----------------------------------|
E|--------------------------------------------------------|

Contact

If you have any suggestion, request or anythin else, feel free to contact me anytime on surffer3d@hotmail.com.


NOTE! This site uses cookies and similar technologies.

This site uses cookies and similar technologies. If you not change browser settings, you agree to it. Learn more

I understand