Mike Oldfield Una web dedicada a tabulados

Snow Cavern Flight tab

Song: Snow Cavern Flight
Album: Tr3s Lunas II (not officcial)
Author: Mike Oldfield


This tab is just my interpretation of the song, and probably it does
not show the real author's work.  If you find any mistake contact me,
please.


Moisés Ferrer Serra
oldfield@byaku.net


Tab notation:
s	slide
>/<	slide up/down (indeterminated number of frets)
h	hammer on
p	pull off
b	bend
r	release bend
~	vibrato


More information about the notation at www.oldfield.byaku.net


This is the tab of the third song of the album (not official)
Tr3s Lunas II, a remix by Brandon Blume of the music of the MVR game.





 Repeat the next tab several times (played with Electric
 Guitar 1 and clean sound).

     (0:17),(1:00),(1:57),(2:30),(4:28),(4:42)
E|--------------------------------------------------------|
B|--------------------------10-----------7b8r7~-----------|
G|-------------------7-9s11----11---9h11--------9-7-------|
D|-----5-7-7b8r7-5-9--------------9-----------------7s9---|
A|---7----------------------------------------------------|
E|--------------------------------------------------------|




 The next 3 tabs are played by Electric Guitar 1 (clean sound).

     (2:55),(3:16),(5:07)
E|---------------------------|
B|----------7b8r7~-----------|
G|-----9h11--------9-7-------|
D|---9-----------------7s9---|
A|---------------------------|
E|---------------------------|


     (2:59)
E|--------------------|
B|------------10------|
G|-----7-9s11----11---|
D|---9----------------|
A|--------------------|
E|--------------------|


     (3:08)
E|-------------------|
B|-------------------|
G|-------------------|
D|-----5-7-7b8r7-5---|
A|---7---------------|
E|-------------------|




 Electric Guitar 2 (low volume), maybe bass guitar. Repeat
 every 16 seconds until the end (starts at 0:35)

E|-----------------------------------------------------|
B|-----------------------------------------------------|
G|-----------------------------------------------------|
D|---------------------------7-7-----------------------|
A|-------7-7p5-------------7-----10p7-7-9----------5---|
E|---0-7-------7-5h7p5h7-5----------------10p7-5s7-----|






 Electric Guitar 3, with  distorted sound and using
 wah-wah effect. At (3:53) continues the guitar that
 started at (3:20), and a second guitar starts (same
 sound), from the ^^ mark to the end of the tab and
 repeat until the ^^ mark. Later, at (4:25), this
 second guitar continues from the ^^ mark until the
 end.

     (1:25),(1:58),(3:20),(3:53)
E|-----------------------------------------------------------|
B|-------------------------------10--------------------------|
G|------------------------7h9s11----11-11h12p11-9-9h11-------|
D|-------5-7-7b8r7-5-7s9-------------------------------------|
A|---5s7-----------------------------------------------------|
E|-----------------------------------------------------------|

                                 (3:53),(4:25)
E|-----------------------------------------------------------|
B|---7b8-7-----------------------------------------12p10-----|
G|---------9p7-------------------------12h14p12h14-----------|
D|-------------7s9-----5h7-5h7---12s14-----------------------|
A|-----------------5s7---------5-----------------------------|
E|-----------------------------------------------------------|
                                 ^^

E|---------------------17-15-14h15p14-----------------14-----|
B|------------15-17b19----------------17-15b17<----17--------|
G|---12-14s16-----------------------------------16-----------|
D|-----------------------------------------------------------|
A|-----------------------------------------------------------|
E|-----------------------------------------------------------|


E|---14b15-14b15r14------------------------------------------|
B|------------------17-15-15-15b17r15-------------------15---|
G|------------------------------------------12-14-14b16------|
D|------------------------------------12h14------------------|
A|-----------------------------------------------------------|
E|-----------------------------------------------------------|


E|--------------|
B|--------------|
G|---14b16r14---|
D|--------------|
A|--------------|
E|--------------|






 Electric Guitar 3, with  distorted sound and using
 wah-wah effect. At (4:25) plays with the other guitar
 (tab above) too.

     (2:31),(4:25),(4:42)
E|---------------------|
B|---------------------|
G|---------------------|
D|-------5-7-7b8r7-5---|
A|---5s7---------------|
E|---------------------|



Puede interesarte ...

Contacta

Si tienes alguna sugerencia, petición o consulta, puedes contactar conmigo en cualquier momento en Esta dirección de correo electrónico está siendo protegida contra los robots de spam. Necesita tener JavaScript habilitado para poder verlo..


¡Atención! Este sitio usa cookies y tecnologías similares.

¡Atención! Este sitio usa cookies y tecnologías similares. Si no cambia la configuración de su navegador, usted acepta su uso. Saber más

Acepto

¡Atención! Este sitio usa cookies y tecnologías similares.

Este sitio usa cookies y tecnologías similares. Si no cambia la configuración de su navegador, usted acepta su uso. Saber más

Acepto