Mike Oldfield A dedicated tab site

Molly tab

Song: Molly
Album: QE2
Author: Mike Oldfield


This tab is just my interpretation of the song, and probably it does
not show the real author's work.  If you find any mistake contact me,
please.


Moisés Ferrer Serra
oldfield@byaku.net


Tab notation:
s	slide
h	hammer on
p	pull off
~	vibrato

More information about the notation at www.oldfield.byaku.net





     (0:00)
E|---------------12----------------------------12------------------------|
B|---14-12h14-12----14-12h14-12----14-12h14-12----14-12h14-12h14p12------|
G|------------------------------14----------------------------------14---|
D|-----------------------------------------------------------------------|
A|-----------------------------------------------------------------------|
E|-----------------------------------------------------------------------|

     (0:09)
E|---------------12-----------------------------------------|
B|---12-10h12-10----12-10h12-10h12p10----12-10h12-10--------|
G|------------------------------------11-------------11-9---|
D|----------------------------------------------------------|
A|----------------------------------------------------------|
E|----------------------------------------------------------|

     (0:17)
E|---------------10s12----------------------------------12---|
B|---14-12-14-12-------14-12h14-12h14p12----14-12-14-12------|
G|---------------------------------------14------------------|
D|-----------------------------------------------------------|
A|-----------------------------------------------------------|
E|-----------------------------------------------------------|

     (0:24)
E|--------------------------------------------------------------------|
B|---14-12h14-12h14p12-------------------17---------------------------|
G|---------------------14s16-16-14h16-14----14s16-14h16-14h16p14------|
D|---------------------------------------------------------------16---|
A|--------------------------------------------------------------------|
E|--------------------------------------------------------------------|

     (0:31)
E|------------------------------------------17---------------------|
B|------------------------17s19-19-17-19-17----19-17-19-17h19p17---|
G|---14s16-14h16-14s11---------------------------------------------|
D|---------------------14------------------------------------------|
A|-----------------------------------------------------------------|
E|-----------------------------------------------------------------|


     (0:40)
E|-------------------------------------------------------------------|
B|---15s17-17-15-17-15s22-22<----14-12h14p12----15-14h15-14s19-19<---|
G|-------------------------------------------14----------------------|
D|----------------------------14-------------------------------------|
A|-------------------------------------------------------------------|
E|-------------------------------------------------------------------|


     (0:47)
E|-----------------------------------------------------------------|
B|---15-14h15-14h15p14-------------------17------------------------|
G|---------------------16s18-18-16h18-16----18----18-17h18p17------|
D|------------------------------------------------------------19---|
A|---------------------------------------------19------------------|
E|-----------------------------------------------------------------|

     (0:55)
E|---------10-------10-------10-------10-------10------|
B|---10-12----10-12----10-12----10-12----10-12----12---|
G|-----------------------------------------------------|
D|-----------------------------------------------------|
A|-----------------------------------------------------|
E|-----------------------------------------------------|


E|------10h12----10h12----10s19-19~---|
B|---12-------12-------12-------------|
G|------------------------------------|
D|------------------------------------|
A|------------------------------------|
E|------------------------------------|



Also interesting...

Contact

If you have any suggestion, request or anythin else, feel free to contact me anytime on surffer3d@hotmail.com.


NOTE! This site uses cookies and similar technologies.

This site uses cookies and similar technologies. If you not change browser settings, you agree to it. Learn more

I understand